ISO-10303-21;
HEADER;
FILE_DESCRIPTION (( 'STEP AP203' ),
    '1' );
FILE_NAME ('1805443EC.STEP',
    '2022-04-22T08:58:57',
    ( '' ),
    ( '' ),
    'SwSTEP 2.0',
    'SolidWorks 2020',
    '' );
FILE_SCHEMA (( 'CONFIG_CONTROL_DESIGN' ));
ENDSEC;

DATA;
#1 = COORDINATED_UNIVERSAL_TIME_OFFSET ( 0, 0, .AHEAD. ) ;
#2 = APPROVAL_PERSON_ORGANIZATION ( #263, #254, #175 ) ;
#3 = CARTESIAN_POINT ( 'NONE',  ( 43.50000000000000000, 120.9999999999999858, -0.7500000000000000000 ) ) ;
#4 = VERTEX_POINT ( 'NONE', #3 ) ;
#5 = CARTESIAN_POINT ( 'NONE',  ( 0.000000000000000000, 1.500000000000000000, 0.7500000000000000000 ) ) ;
#6 = CARTESIAN_POINT ( 'NONE',  ( 43.50000000000000000, 1.500000000000000000, 0.7500000000000000000 ) ) ;
#7 = DIRECTION ( 'NONE',  ( 0.000000000000000000, -1.000000000000000000, 0.000000000000000000 ) ) ;
#8 = VECTOR ( 'NONE', #194, 1000.000000000000000 ) ;
#9 = DATE_AND_TIME ( #295, #177 ) ;
#10 = DIRECTION ( 'NONE',  ( 0.000000000000000000, 1.000000000000000000, 0.000000000000000000 ) ) ;
#11 = EDGE_CURVE ( 'NONE', #146, #88, #218, .T. ) ;
#12 = VECTOR ( 'NONE', #336, 1000.000000000000000 ) ;
#13 = CARTESIAN_POINT ( 'NONE',  ( 43.50000000000000000, 1.500000000000000000, 0.7500000000000000000 ) ) ;
#14 = CARTESIAN_POINT ( 'NONE',  ( 0.000000000000000000, 1.500000000000000000, 0.7500000000000000000 ) ) ;
#15 = DIRECTION ( 'NONE',  ( -0.000000000000000000, -1.000000000000000000, -0.000000000000000000 ) ) ;
#16 = EDGE_CURVE ( 'NONE', #84, #24, #360, .T. ) ;
#17 = EDGE_CURVE ( 'NONE', #238, #28, #358, .T. ) ;
#18 = CARTESIAN_POINT ( 'NONE',  ( 1.500000000000000000, 1.500000000000000000, 0.7500000000000000000 ) ) ;
#19 = EDGE_CURVE ( 'NONE', #88, #259, #98, .T. ) ;
#20 = LINE ( 'NONE', #363, #43 ) ;
#21 = CIRCLE ( 'NONE', #242, 1.500000000000000000 ) ;
#22 = DIRECTION ( 'NONE',  ( 0.000000000000000000, 0.000000000000000000, 1.000000000000000000 ) ) ;
#23 = COORDINATED_UNIVERSAL_TIME_OFFSET ( 0, 0, .AHEAD. ) ;
#24 = VERTEX_POINT ( 'NONE', #185 ) ;
#25 = ORIENTED_EDGE ( 'NONE', *, *, #16, .F. ) ;
#26 = VECTOR ( 'NONE', #162, 1000.000000000000000 ) ;
#27 = COORDINATED_UNIVERSAL_TIME_OFFSET ( 0, 0, .AHEAD. ) ;
#28 = VERTEX_POINT ( 'NONE', #70 ) ;
#29 = AXIS2_PLACEMENT_3D ( 'NONE', #307, #202, #133 ) ;
#30 = ORIENTED_EDGE ( 'NONE', *, *, #219, .F. ) ;
#31 = APPROVAL_STATUS ( 'not_yet_approved' ) ;
#32 = ORIENTED_EDGE ( 'NONE', *, *, #92, .F. ) ;
#33 = SHAPE_DEFINITION_REPRESENTATION ( #267, #251 ) ;
#34 = CARTESIAN_POINT ( 'NONE',  ( 1.500000000000000000, 0.000000000000000000, 0.7500000000000000000 ) ) ;
#35 = APPROVAL_ROLE ( '' ) ;
#36 = DIRECTION ( 'NONE',  ( -0.000000000000000000, -0.000000000000000000, -1.000000000000000000 ) ) ;
#37 = COORDINATED_UNIVERSAL_TIME_OFFSET ( 0, 0, .AHEAD. ) ;
#38 = FACE_OUTER_BOUND ( 'NONE', #139, .T. ) ;
#39 = ORIENTED_EDGE ( 'NONE', *, *, #245, .T. ) ;
#40 = EDGE_CURVE ( 'NONE', #262, #60, #191, .T. ) ;
#41 = CARTESIAN_POINT ( 'NONE',  ( 1.500000000000000000, 120.9999999999999858, -0.7500000000000000000 ) ) ;
#42 = FACE_OUTER_BOUND ( 'NONE', #344, .T. ) ;
#43 = VECTOR ( 'NONE', #106, 1000.000000000000000 ) ;
#44 = CYLINDRICAL_SURFACE ( 'NONE', #226, 1.500000000000001332 ) ;
#45 = DIRECTION ( 'NONE',  ( -0.000000000000000000, 0.000000000000000000, -1.000000000000000000 ) ) ;
#46 = EDGE_CURVE ( 'NONE', #120, #259, #332, .T. ) ;
#47 = FACE_OUTER_BOUND ( 'NONE', #339, .T. ) ;
#48 = LINE ( 'NONE', #366, #126 ) ;
#49 = CC_DESIGN_APPROVAL ( #254, ( #376 ) ) ;
#50 = PRODUCT_RELATED_PRODUCT_CATEGORY ( 'detail', '', ( #182 ) ) ;
#51 = ADVANCED_FACE ( 'NONE', ( #42 ), #297, .T. ) ;
#52 = LINE ( 'NONE', #338, #309 ) ;
#53 = PERSON_AND_ORGANIZATION ( #97, #333 ) ;
#54 = ORIENTED_EDGE ( 'NONE', *, *, #17, .F. ) ;
#55 = PERSON_AND_ORGANIZATION ( #97, #333 ) ;
#56 = ORIENTED_EDGE ( 'NONE', *, *, #11, .T. ) ;
#57 = CALENDAR_DATE ( 2022, 22, 4 ) ;
#58 = ORIENTED_EDGE ( 'NONE', *, *, #316, .F. ) ;
#59 = VECTOR ( 'NONE', #95, 1000.000000000000000 ) ;
#60 = VERTEX_POINT ( 'NONE', #217 ) ;
#61 = DIRECTION ( 'NONE',  ( 1.000000000000000000, 0.000000000000000000, 0.000000000000000000 ) ) ;
#62 = AXIS2_PLACEMENT_3D ( 'NONE', #132, #222, #255 ) ;
#63 = EDGE_LOOP ( 'NONE', ( #290, #213, #211, #174 ) ) ;
#64 = DATE_TIME_ROLE ( 'classification_date' ) ;
#65 = LINE ( 'NONE', #184, #214 ) ;
#66 = CARTESIAN_POINT ( 'NONE',  ( 43.50000000000000000, 0.000000000000000000, 0.7500000000000000000 ) ) ;
#67 = COORDINATED_UNIVERSAL_TIME_OFFSET ( 0, 0, .AHEAD. ) ;
#68 = CARTESIAN_POINT ( 'NONE',  ( 1.500000000000000000, 0.000000000000000000, 0.7500000000000000000 ) ) ;
#69 = EDGE_CURVE ( 'NONE', #179, #4, #362, .T. ) ;
#70 = CARTESIAN_POINT ( 'NONE',  ( 45.00000000000000000, 119.4999999999999858, -0.7500000000000000000 ) ) ;
#71 = LINE ( 'NONE', #223, #201 ) ;
#72 = FACE_OUTER_BOUND ( 'NONE', #325, .T. ) ;
#73 = FACE_OUTER_BOUND ( 'NONE', #230, .T. ) ;
#74 = EDGE_CURVE ( 'NONE', #120, #172, #271, .T. ) ;
#75 = CARTESIAN_POINT ( 'NONE',  ( 43.50000000000000000, 119.4999999999999858, 0.7500000000000000000 ) ) ;
#76 = DIRECTION ( 'NONE',  ( -1.000000000000000000, 0.000000000000000000, 0.000000000000000000 ) ) ;
#77 = ORIENTED_EDGE ( 'NONE', *, *, #331, .F. ) ;
#78 = CC_DESIGN_PERSON_AND_ORGANIZATION_ASSIGNMENT ( #347, #298, ( #357 ) ) ;
#79 = EDGE_CURVE ( 'NONE', #60, #88, #21, .T. ) ;
#80 = CIRCLE ( 'NONE', #326, 1.500000000000000000 ) ;
#81 = CARTESIAN_POINT ( 'NONE',  ( 43.50000000000000000, 0.000000000000000000, -0.7500000000000000000 ) ) ;
#82 = VERTEX_POINT ( 'NONE', #100 ) ;
#83 = DATE_AND_TIME ( #57, #220 ) ;
#84 = VERTEX_POINT ( 'NONE', #221 ) ;
#85 = ORIENTED_EDGE ( 'NONE', *, *, #69, .T. ) ;
#86 = ADVANCED_FACE ( 'NONE', ( #356 ), #156, .F. ) ;
#87 = DIRECTION ( 'NONE',  ( -0.000000000000000000, -0.000000000000000000, -1.000000000000000000 ) ) ;
#88 = VERTEX_POINT ( 'NONE', #334 ) ;
#89 = AXIS2_PLACEMENT_3D ( 'NONE', #96, #187, #353 ) ;
#90 = MECHANICAL_CONTEXT ( 'NONE', #105, 'mechanical' ) ;
#91 = ORIENTED_EDGE ( 'NONE', *, *, #46, .T. ) ;
#92 = EDGE_CURVE ( 'NONE', #4, #24, #164, .T. ) ;
#93 = CIRCLE ( 'NONE', #304, 1.500000000000001332 ) ;
#94 = ORIENTED_EDGE ( 'NONE', *, *, #198, .T. ) ;
#95 = DIRECTION ( 'NONE',  ( 0.000000000000000000, 1.000000000000000000, 0.000000000000000000 ) ) ;
#96 = CARTESIAN_POINT ( 'NONE',  ( 0.000000000000000000, 1.500000000000000000, 0.7500000000000000000 ) ) ;
#97 = PERSON ( 'UNSPECIFIED', 'UNSPECIFIED', 'UNSPECIFIED', ('UNSPECIFIED'), ('UNSPECIFIED'), ('UNSPECIFIED') ) ;
#98 = LINE ( 'NONE', #303, #322 ) ;
#99 = CIRCLE ( 'NONE', #274, 1.500000000000001332 ) ;
#100 = CARTESIAN_POINT ( 'NONE',  ( -6.505213034913026604E-16, 119.4999999999999858, 0.7500000000000000000 ) ) ;
#101 = APPROVAL_PERSON_ORGANIZATION ( #55, #308, #153 ) ;
#102 = UNCERTAINTY_MEASURE_WITH_UNIT (LENGTH_MEASURE( 1.000000000000000082E-05 ), #371, 'distance_accuracy_value', 'NONE');
#103 = LINE ( 'NONE', #341, #370 ) ;
#104 = CC_DESIGN_APPROVAL ( #308, ( #265 ) ) ;
#105 = APPLICATION_CONTEXT ( 'configuration controlled 3d designs of mechanical parts and assemblies' ) ;
#106 = DIRECTION ( 'NONE',  ( 1.000000000000000000, 0.000000000000000000, 0.000000000000000000 ) ) ;
#107 = DIRECTION ( 'NONE',  ( -1.000000000000000000, 0.000000000000000000, 0.000000000000000000 ) ) ;
#108 = FACE_OUTER_BOUND ( 'NONE', #63, .T. ) ;
#109 = ADVANCED_FACE ( 'NONE', ( #275 ), #131, .F. ) ;
#110 = CARTESIAN_POINT ( 'NONE',  ( 1.500000000000000000, 1.500000000000000000, 0.7500000000000000000 ) ) ;
#111 = ORIENTED_EDGE ( 'NONE', *, *, #245, .F. ) ;
#112 = CIRCLE ( 'NONE', #180, 1.500000000000000666 ) ;
#113 = APPROVAL_DATE_TIME ( #261, #308 ) ;
#114 = DIRECTION ( 'NONE',  ( -1.000000000000000000, 0.000000000000000000, 0.000000000000000000 ) ) ;
#115 = ORIENTED_EDGE ( 'NONE', *, *, #150, .T. ) ;
#116 = PERSON_AND_ORGANIZATION ( #97, #333 ) ;
#117 = ORIENTED_EDGE ( 'NONE', *, *, #260, .F. ) ;
#118 = PERSON_AND_ORGANIZATION_ROLE ( 'design_supplier' ) ;
#119 = ORIENTED_EDGE ( 'NONE', *, *, #150, .F. ) ;
#120 = VERTEX_POINT ( 'NONE', #244 ) ;
#121 = ADVANCED_FACE ( 'NONE', ( #38 ), #270, .F. ) ;
#122 = EDGE_LOOP ( 'NONE', ( #284, #294, #77, #315 ) ) ;
#123 = APPLICATION_CONTEXT ( 'configuration controlled 3d designs of mechanical parts and assemblies' ) ;
#124 = CARTESIAN_POINT ( 'NONE',  ( 1.500000000000000000, 120.9999999999999858, 0.7500000000000000000 ) ) ;
#125 = DIRECTION ( 'NONE',  ( 0.000000000000000000, 0.000000000000000000, 1.000000000000000000 ) ) ;
#126 = VECTOR ( 'NONE', #168, 1000.000000000000000 ) ;
#127 = CLOSED_SHELL ( 'NONE', ( #349, #109, #51, #355, #330, #121, #354, #86, #199, #285 ) ) ;
#128 = CARTESIAN_POINT ( 'NONE',  ( 1.500000000000000000, 0.000000000000000000, 0.7500000000000000000 ) ) ;
#129 = LOCAL_TIME ( 9, 58, 57.00000000000000000, #37 ) ;
#130 = DIRECTION ( 'NONE',  ( -0.000000000000000000, -0.000000000000000000, -1.000000000000000000 ) ) ;
#131 = PLANE ( 'NONE',  #301 ) ;
#132 = CARTESIAN_POINT ( 'NONE',  ( 1.500000000000000000, 1.500000000000000000, -0.7500000000000000000 ) ) ;
#133 = DIRECTION ( 'NONE',  ( -1.000000000000000000, 0.000000000000000000, 0.000000000000000000 ) ) ;
#134 = CC_DESIGN_DATE_AND_TIME_ASSIGNMENT ( #9, #64, ( #357 ) ) ;
#135 = EDGE_CURVE ( 'NONE', #82, #262, #65, .T. ) ;
#136 = DIRECTION ( 'NONE',  ( -0.000000000000000000, -0.000000000000000000, -1.000000000000000000 ) ) ;
#137 =( GEOMETRIC_REPRESENTATION_CONTEXT ( 3 ) GLOBAL_UNCERTAINTY_ASSIGNED_CONTEXT ( ( #102 ) ) GLOBAL_UNIT_ASSIGNED_CONTEXT ( ( #371, #289, #320 ) ) REPRESENTATION_CONTEXT ( 'NONE', 'WORKASPACE' ) );
#138 = DIRECTION ( 'NONE',  ( 0.000000000000000000, 0.000000000000000000, 1.000000000000000000 ) ) ;
#139 = EDGE_LOOP ( 'NONE', ( #246, #25, #234, #85 ) ) ;
#140 = LOCAL_TIME ( 9, 58, 57.00000000000000000, #27 ) ;
#141 = VECTOR ( 'NONE', #248, 1000.000000000000000 ) ;
#142 = CARTESIAN_POINT ( 'NONE',  ( -6.505213034913026604E-16, 119.4999999999999858, -0.7500000000000000000 ) ) ;
#143 = DIRECTION ( 'NONE',  ( 0.000000000000000000, 0.000000000000000000, 1.000000000000000000 ) ) ;
#144 = ORIENTED_EDGE ( 'NONE', *, *, #40, .F. ) ;
#145 = CARTESIAN_POINT ( 'NONE',  ( 1.500000000000000000, 119.4999999999999858, 0.7500000000000000000 ) ) ;
#146 = VERTEX_POINT ( 'NONE', #34 ) ;
#147 = ORIENTED_EDGE ( 'NONE', *, *, #279, .F. ) ;
#148 = AXIS2_PLACEMENT_3D ( 'NONE', #75, #227, #311 ) ;
#149 = APPLICATION_PROTOCOL_DEFINITION ( 'international standard', 'config_control_design', 1994, #123 ) ;
#150 = EDGE_CURVE ( 'NONE', #373, #60, #268, .T. ) ;
#151 = ORIENTED_EDGE ( 'NONE', *, *, #316, .T. ) ;
#152 = LOCAL_TIME ( 9, 58, 57.00000000000000000, #1 ) ;
#153 = APPROVAL_ROLE ( '' ) ;
#154 = ORIENTED_EDGE ( 'NONE', *, *, #79, .T. ) ;
#155 = EDGE_CURVE ( 'NONE', #373, #146, #80, .T. ) ;
#156 = PLANE ( 'NONE',  #89 ) ;
#157 = DIRECTION ( 'NONE',  ( -1.000000000000000000, 0.000000000000000000, 0.000000000000000000 ) ) ;
#158 = PERSON_AND_ORGANIZATION ( #97, #333 ) ;
#159 = DIRECTION ( 'NONE',  ( 0.000000000000000000, 0.000000000000000000, 1.000000000000000000 ) ) ;
#160 = AXIS2_PLACEMENT_3D ( 'NONE', #145, #87, #345 ) ;
#161 = AXIS2_PLACEMENT_3D ( 'NONE', #6, #36, #157 ) ;
#162 = DIRECTION ( 'NONE',  ( -0.000000000000000000, -1.000000000000000000, -0.000000000000000000 ) ) ;
#163 = CC_DESIGN_APPROVAL ( #364, ( #357 ) ) ;
#164 = LINE ( 'NONE', #41, #367 ) ;
#165 = CIRCLE ( 'NONE', #148, 1.500000000000001332 ) ;
#166 = DIRECTION ( 'NONE',  ( -1.000000000000000000, 0.000000000000000000, 0.000000000000000000 ) ) ;
#167 = DIRECTION ( 'NONE',  ( -0.000000000000000000, -0.000000000000000000, -1.000000000000000000 ) ) ;
#168 = DIRECTION ( 'NONE',  ( 0.000000000000000000, 1.000000000000000000, 0.000000000000000000 ) ) ;
#169 = CARTESIAN_POINT ( 'NONE',  ( 43.50000000000000000, 119.4999999999999858, 0.7500000000000000000 ) ) ;
#170 = AXIS2_PLACEMENT_3D ( 'NONE', #237, #143, #61 ) ;
#171 = FACE_OUTER_BOUND ( 'NONE', #283, .T. ) ;
#172 = VERTEX_POINT ( 'NONE', #276 ) ;
#173 = CALENDAR_DATE ( 2022, 22, 4 ) ;
#174 = ORIENTED_EDGE ( 'NONE', *, *, #16, .T. ) ;
#175 = APPROVAL_ROLE ( '' ) ;
#176 = ORIENTED_EDGE ( 'NONE', *, *, #155, .F. ) ;
#177 = LOCAL_TIME ( 9, 58, 57.00000000000000000, #67 ) ;
#178 = CC_DESIGN_PERSON_AND_ORGANIZATION_ASSIGNMENT ( #203, #312, ( #265 ) ) ;
#179 = VERTEX_POINT ( 'NONE', #195 ) ;
#180 = AXIS2_PLACEMENT_3D ( 'NONE', #228, #280, #76 ) ;
#181 = PERSON_AND_ORGANIZATION_ROLE ( 'creator' ) ;
#182 = PRODUCT ( '1805443EC', '1805443EC', '', ( #90 ) ) ;
#183 = ORIENTED_EDGE ( 'NONE', *, *, #19, .T. ) ;
#184 = CARTESIAN_POINT ( 'NONE',  ( -6.505213034913026604E-16, 119.4999999999999858, 0.7500000000000000000 ) ) ;
#185 = CARTESIAN_POINT ( 'NONE',  ( 1.500000000000000000, 120.9999999999999858, -0.7500000000000000000 ) ) ;
#186 = EDGE_CURVE ( 'NONE', #172, #238, #52, .T. ) ;
#187 = DIRECTION ( 'NONE',  ( 1.000000000000000000, 0.000000000000000000, 0.000000000000000000 ) ) ;
#188 = DESIGN_CONTEXT ( 'detailed design', #123, 'design' ) ;
#189 = APPROVAL_DATE_TIME ( #240, #364 ) ;
#190 = MANIFOLD_SOLID_BREP ( 'Boss-Extrude1', #127 ) ;
#191 = LINE ( 'NONE', #328, #26 ) ;
#192 = CC_DESIGN_PERSON_AND_ORGANIZATION_ASSIGNMENT ( #314, #181, ( #376 ) ) ;
#193 = AXIS2_PLACEMENT_3D ( 'NONE', #13, #159, #269 ) ;
#194 = DIRECTION ( 'NONE',  ( -0.000000000000000000, -0.000000000000000000, -1.000000000000000000 ) ) ;
#195 = CARTESIAN_POINT ( 'NONE',  ( 43.50000000000000000, 120.9999999999999858, 0.7500000000000000000 ) ) ;
#196 = DIRECTION ( 'NONE',  ( -0.000000000000000000, -0.000000000000000000, -1.000000000000000000 ) ) ;
#197 = LINE ( 'NONE', #14, #229 ) ;
#198 = EDGE_CURVE ( 'NONE', #208, #179, #165, .T. ) ;
#199 = ADVANCED_FACE ( 'NONE', ( #73 ), #306, .F. ) ;
#200 = CYLINDRICAL_SURFACE ( 'NONE', #160, 1.500000000000000666 ) ;
#201 = VECTOR ( 'NONE', #167, 1000.000000000000000 ) ;
#202 = DIRECTION ( 'NONE',  ( 0.000000000000000000, 0.000000000000000000, 1.000000000000000000 ) ) ;
#203 = PERSON_AND_ORGANIZATION ( #97, #333 ) ;
#204 = ORIENTED_EDGE ( 'NONE', *, *, #331, .T. ) ;
#205 = DATE_TIME_ROLE ( 'creation_date' ) ;
#206 = EDGE_LOOP ( 'NONE', ( #183, #374, #30, #56 ) ) ;
#207 = APPLICATION_PROTOCOL_DEFINITION ( 'international standard', 'config_control_design', 1994, #105 ) ;
#208 = VERTEX_POINT ( 'NONE', #249 ) ;
#209 = EDGE_CURVE ( 'NONE', #84, #82, #112, .T. ) ;
#210 = AXIS2_PLACEMENT_3D ( 'NONE', #257, #114, #375 ) ;
#211 = ORIENTED_EDGE ( 'NONE', *, *, #209, .F. ) ;
#212 = VECTOR ( 'NONE', #329, 1000.000000000000000 ) ;
#213 = ORIENTED_EDGE ( 'NONE', *, *, #135, .F. ) ;
#214 = VECTOR ( 'NONE', #296, 1000.000000000000000 ) ;
#215 = DIRECTION ( 'NONE',  ( -1.000000000000000000, -0.000000000000000000, -0.000000000000000000 ) ) ;
#216 = DIRECTION ( 'NONE',  ( 1.000000000000000000, 0.000000000000000000, 0.000000000000000000 ) ) ;
#217 = CARTESIAN_POINT ( 'NONE',  ( 0.000000000000000000, 1.500000000000000000, -0.7500000000000000000 ) ) ;
#218 = LINE ( 'NONE', #128, #8 ) ;
#219 = EDGE_CURVE ( 'NONE', #146, #120, #20, .T. ) ;
#220 = LOCAL_TIME ( 9, 58, 57.00000000000000000, #23 ) ;
#221 = CARTESIAN_POINT ( 'NONE',  ( 1.500000000000000000, 120.9999999999999858, 0.7500000000000000000 ) ) ;
#222 = DIRECTION ( 'NONE',  ( -0.000000000000000000, 0.000000000000000000, -1.000000000000000000 ) ) ;
#223 = CARTESIAN_POINT ( 'NONE',  ( 45.00000000000000000, 119.4999999999999858, 0.7500000000000000000 ) ) ;
#224 = DIRECTION ( 'NONE',  ( -1.000000000000000000, 0.000000000000000000, 0.000000000000000000 ) ) ;
#225 = EDGE_CURVE ( 'NONE', #208, #28, #71, .T. ) ;
#226 = AXIS2_PLACEMENT_3D ( 'NONE', #169, #250, #224 ) ;
#227 = DIRECTION ( 'NONE',  ( 0.000000000000000000, 0.000000000000000000, 1.000000000000000000 ) ) ;
#228 = CARTESIAN_POINT ( 'NONE',  ( 1.500000000000000000, 119.4999999999999858, 0.7500000000000000000 ) ) ;
#229 = VECTOR ( 'NONE', #15, 1000.000000000000000 ) ;
#230 = EDGE_LOOP ( 'NONE', ( #342, #236, #318, #204, #94, #377, #352, #321 ) ) ;
#231 = ORIENTED_EDGE ( 'NONE', *, *, #186, .F. ) ;
#232 = EDGE_CURVE ( 'NONE', #179, #84, #103, .T. ) ;
#233 = APPROVAL_DATE_TIME ( #324, #254 ) ;
#234 = ORIENTED_EDGE ( 'NONE', *, *, #232, .F. ) ;
#235 = SECURITY_CLASSIFICATION_LEVEL ( 'unclassified' ) ;
#236 = ORIENTED_EDGE ( 'NONE', *, *, #219, .T. ) ;
#237 = CARTESIAN_POINT ( 'NONE',  ( 0.000000000000000000, 0.000000000000000000, 0.000000000000000000 ) ) ;
#238 = VERTEX_POINT ( 'NONE', #305 ) ;
#239 = CARTESIAN_POINT ( 'NONE',  ( 45.00000000000000000, 1.500000000000000000, -0.7500000000000000000 ) ) ;
#240 = DATE_AND_TIME ( #302, #129 ) ;
#241 = DIRECTION ( 'NONE',  ( -1.000000000000000000, 0.000000000000000000, 0.000000000000000000 ) ) ;
#242 = AXIS2_PLACEMENT_3D ( 'NONE', #247, #125, #241 ) ;
#243 = APPROVAL_STATUS ( 'not_yet_approved' ) ;
#244 = CARTESIAN_POINT ( 'NONE',  ( 43.50000000000000000, 0.000000000000000000, 0.7500000000000000000 ) ) ;
#245 = EDGE_CURVE ( 'NONE', #259, #238, #99, .T. ) ;
#246 = ORIENTED_EDGE ( 'NONE', *, *, #92, .T. ) ;
#247 = CARTESIAN_POINT ( 'NONE',  ( 1.500000000000000000, 1.500000000000000000, -0.7500000000000000000 ) ) ;
#248 = DIRECTION ( 'NONE',  ( -0.000000000000000000, -0.000000000000000000, -1.000000000000000000 ) ) ;
#249 = CARTESIAN_POINT ( 'NONE',  ( 45.00000000000000000, 119.4999999999999858, 0.7500000000000000000 ) ) ;
#250 = DIRECTION ( 'NONE',  ( -0.000000000000000000, -0.000000000000000000, -1.000000000000000000 ) ) ;
#251 = ADVANCED_BREP_SHAPE_REPRESENTATION ( '1805443EC', ( #190, #170 ), #137 ) ;
#252 = DIRECTION ( 'NONE',  ( -1.000000000000000000, 0.000000000000000000, 0.000000000000000000 ) ) ;
#253 = DIRECTION ( 'NONE',  ( -1.000000000000000000, 0.000000000000000000, 0.000000000000000000 ) ) ;
#254 = APPROVAL ( #31, 'UNSPECIFIED' ) ;
#255 = DIRECTION ( 'NONE',  ( -1.000000000000000000, 0.000000000000000000, 0.000000000000000000 ) ) ;
#256 = CIRCLE ( 'NONE', #29, 1.500000000000000666 ) ;
#257 = CARTESIAN_POINT ( 'NONE',  ( 45.00000000000000000, 1.500000000000000000, 0.7500000000000000000 ) ) ;
#258 = EDGE_LOOP ( 'NONE', ( #348, #119, #117, #266 ) ) ;
#259 = VERTEX_POINT ( 'NONE', #81 ) ;
#260 = EDGE_CURVE ( 'NONE', #82, #373, #197, .T. ) ;
#261 = DATE_AND_TIME ( #286, #140 ) ;
#262 = VERTEX_POINT ( 'NONE', #142 ) ;
#263 = PERSON_AND_ORGANIZATION ( #97, #333 ) ;
#264 = ORIENTED_EDGE ( 'NONE', *, *, #198, .F. ) ;
#265 = PRODUCT_DEFINITION_FORMATION_WITH_SPECIFIED_SOURCE ( 'ANY', '', #182, .NOT_KNOWN. ) ;
#266 = ORIENTED_EDGE ( 'NONE', *, *, #135, .T. ) ;
#267 = PRODUCT_DEFINITION_SHAPE ( 'NONE', 'NONE',  #376 ) ;
#268 = LINE ( 'NONE', #5, #12 ) ;
#269 = DIRECTION ( 'NONE',  ( 1.000000000000000000, 0.000000000000000000, 0.000000000000000000 ) ) ;
#270 = PLANE ( 'NONE',  #340 ) ;
#271 = CIRCLE ( 'NONE', #193, 1.500000000000001332 ) ;
#272 = APPROVAL_PERSON_ORGANIZATION ( #158, #364, #35 ) ;
#273 = CARTESIAN_POINT ( 'NONE',  ( 1.500000000000000000, 120.9999999999999858, 0.7500000000000000000 ) ) ;
#274 = AXIS2_PLACEMENT_3D ( 'NONE', #368, #138, #365 ) ;
#275 = FACE_OUTER_BOUND ( 'NONE', #206, .T. ) ;
#276 = CARTESIAN_POINT ( 'NONE',  ( 45.00000000000000000, 1.500000000000000000, 0.7500000000000000000 ) ) ;
#277 = DIRECTION ( 'NONE',  ( -1.000000000000000000, -0.000000000000000000, -0.000000000000000000 ) ) ;
#278 = CYLINDRICAL_SURFACE ( 'NONE', #319, 1.500000000000000000 ) ;
#279 = EDGE_CURVE ( 'NONE', #24, #262, #256, .T. ) ;
#280 = DIRECTION ( 'NONE',  ( 0.000000000000000000, 0.000000000000000000, 1.000000000000000000 ) ) ;
#281 = CARTESIAN_POINT ( 'NONE',  ( 43.50000000000000000, 119.4999999999999858, -0.7500000000000000000 ) ) ;
#282 = CARTESIAN_POINT ( 'NONE',  ( 0.000000000000000000, 1.500000000000000000, 0.7500000000000000000 ) ) ;
#283 = EDGE_LOOP ( 'NONE', ( #350, #144, #147, #32, #58, #54, #111, #313 ) ) ;
#284 = ORIENTED_EDGE ( 'NONE', *, *, #17, .T. ) ;
#285 = ADVANCED_FACE ( 'NONE', ( #171 ), #337, .T. ) ;
#286 = CALENDAR_DATE ( 2022, 22, 4 ) ;
#287 = ORIENTED_EDGE ( 'NONE', *, *, #69, .F. ) ;
#288 = CC_DESIGN_SECURITY_CLASSIFICATION ( #357, ( #265 ) ) ;
#289 =( NAMED_UNIT ( * ) PLANE_ANGLE_UNIT ( ) SI_UNIT ( $, .RADIAN. ) );
#290 = ORIENTED_EDGE ( 'NONE', *, *, #279, .T. ) ;
#291 = AXIS2_PLACEMENT_3D ( 'NONE', #335, #45, #107 ) ;
#292 = APPROVAL_STATUS ( 'not_yet_approved' ) ;
#293 = CC_DESIGN_PERSON_AND_ORGANIZATION_ASSIGNMENT ( #53, #118, ( #265 ) ) ;
#294 = ORIENTED_EDGE ( 'NONE', *, *, #225, .F. ) ;
#295 = CALENDAR_DATE ( 2022, 22, 4 ) ;
#296 = DIRECTION ( 'NONE',  ( -0.000000000000000000, -0.000000000000000000, -1.000000000000000000 ) ) ;
#297 = CYLINDRICAL_SURFACE ( 'NONE', #161, 1.500000000000001332 ) ;
#298 = PERSON_AND_ORGANIZATION_ROLE ( 'classification_officer' ) ;
#299 = DIRECTION ( 'NONE',  ( 0.000000000000000000, -0.000000000000000000, 1.000000000000000000 ) ) ;
#300 = CARTESIAN_POINT ( 'NONE',  ( 43.50000000000000000, 120.9999999999999858, 0.7500000000000000000 ) ) ;
#301 = AXIS2_PLACEMENT_3D ( 'NONE', #68, #10, #299 ) ;
#302 = CALENDAR_DATE ( 2022, 22, 4 ) ;
#303 = CARTESIAN_POINT ( 'NONE',  ( 1.500000000000000000, 0.000000000000000000, -0.7500000000000000000 ) ) ;
#304 = AXIS2_PLACEMENT_3D ( 'NONE', #281, #22, #166 ) ;
#305 = CARTESIAN_POINT ( 'NONE',  ( 45.00000000000000000, 1.500000000000000000, -0.7500000000000000000 ) ) ;
#306 = PLANE ( 'NONE',  #291 ) ;
#307 = CARTESIAN_POINT ( 'NONE',  ( 1.500000000000000000, 119.4999999999999858, -0.7500000000000000000 ) ) ;
#308 = APPROVAL ( #292, 'UNSPECIFIED' ) ;
#309 = VECTOR ( 'NONE', #196, 1000.000000000000000 ) ;
#310 = DIRECTION ( 'NONE',  ( 0.000000000000000000, 0.000000000000000000, 1.000000000000000000 ) ) ;
#311 = DIRECTION ( 'NONE',  ( -1.000000000000000000, 0.000000000000000000, 0.000000000000000000 ) ) ;
#312 = PERSON_AND_ORGANIZATION_ROLE ( 'creator' ) ;
#313 = ORIENTED_EDGE ( 'NONE', *, *, #19, .F. ) ;
#314 = PERSON_AND_ORGANIZATION ( #97, #333 ) ;
#315 = ORIENTED_EDGE ( 'NONE', *, *, #186, .T. ) ;
#316 = EDGE_CURVE ( 'NONE', #28, #4, #93, .T. ) ;
#317 = PLANE ( 'NONE',  #210 ) ;
#318 = ORIENTED_EDGE ( 'NONE', *, *, #74, .T. ) ;
#319 = AXIS2_PLACEMENT_3D ( 'NONE', #18, #136, #252 ) ;
#320 =( NAMED_UNIT ( * ) SI_UNIT ( $, .STERADIAN. ) SOLID_ANGLE_UNIT ( ) );
#321 = ORIENTED_EDGE ( 'NONE', *, *, #260, .T. ) ;
#322 = VECTOR ( 'NONE', #216, 1000.000000000000000 ) ;
#323 = CC_DESIGN_PERSON_AND_ORGANIZATION_ASSIGNMENT ( #116, #343, ( #182 ) ) ;
#324 = DATE_AND_TIME ( #173, #152 ) ;
#325 = EDGE_LOOP ( 'NONE', ( #151, #287, #264, #359 ) ) ;
#326 = AXIS2_PLACEMENT_3D ( 'NONE', #110, #310, #253 ) ;
#327 = DIRECTION ( 'NONE',  ( 0.000000000000000000, -0.000000000000000000, -1.000000000000000000 ) ) ;
#328 = CARTESIAN_POINT ( 'NONE',  ( 0.000000000000000000, 1.500000000000000000, -0.7500000000000000000 ) ) ;
#329 = DIRECTION ( 'NONE',  ( -0.000000000000000000, -0.000000000000000000, -1.000000000000000000 ) ) ;
#330 = ADVANCED_FACE ( 'NONE', ( #72 ), #44, .T. ) ;
#331 = EDGE_CURVE ( 'NONE', #172, #208, #48, .T. ) ;
#332 = LINE ( 'NONE', #66, #212 ) ;
#333 = ORGANIZATION ( 'UNSPECIFIED', 'UNSPECIFIED', '' ) ;
#334 = CARTESIAN_POINT ( 'NONE',  ( 1.500000000000000000, 0.000000000000000000, -0.7500000000000000000 ) ) ;
#335 = CARTESIAN_POINT ( 'NONE',  ( 1.500000000000000000, 1.500000000000000000, 0.7500000000000000000 ) ) ;
#336 = DIRECTION ( 'NONE',  ( -0.000000000000000000, -0.000000000000000000, -1.000000000000000000 ) ) ;
#337 = PLANE ( 'NONE',  #62 ) ;
#338 = CARTESIAN_POINT ( 'NONE',  ( 45.00000000000000000, 1.500000000000000000, 0.7500000000000000000 ) ) ;
#339 = EDGE_LOOP ( 'NONE', ( #154, #369, #176, #115 ) ) ;
#340 = AXIS2_PLACEMENT_3D ( 'NONE', #273, #7, #327 ) ;
#341 = CARTESIAN_POINT ( 'NONE',  ( 1.500000000000000000, 120.9999999999999858, 0.7500000000000000000 ) ) ;
#342 = ORIENTED_EDGE ( 'NONE', *, *, #155, .T. ) ;
#343 = PERSON_AND_ORGANIZATION_ROLE ( 'design_owner' ) ;
#344 = EDGE_LOOP ( 'NONE', ( #39, #231, #346, #91 ) ) ;
#345 = DIRECTION ( 'NONE',  ( -1.000000000000000000, 0.000000000000000000, 0.000000000000000000 ) ) ;
#346 = ORIENTED_EDGE ( 'NONE', *, *, #74, .F. ) ;
#347 = PERSON_AND_ORGANIZATION ( #97, #333 ) ;
#348 = ORIENTED_EDGE ( 'NONE', *, *, #40, .T. ) ;
#349 = ADVANCED_FACE ( 'NONE', ( #47 ), #278, .T. ) ;
#350 = ORIENTED_EDGE ( 'NONE', *, *, #79, .F. ) ;
#351 = VECTOR ( 'NONE', #130, 1000.000000000000000 ) ;
#352 = ORIENTED_EDGE ( 'NONE', *, *, #209, .T. ) ;
#353 = DIRECTION ( 'NONE',  ( 0.000000000000000000, 0.000000000000000000, -1.000000000000000000 ) ) ;
#354 = ADVANCED_FACE ( 'NONE', ( #108 ), #200, .T. ) ;
#355 = ADVANCED_FACE ( 'NONE', ( #372 ), #317, .F. ) ;
#356 = FACE_OUTER_BOUND ( 'NONE', #258, .T. ) ;
#357 = SECURITY_CLASSIFICATION ( '', '', #235 ) ;
#358 = LINE ( 'NONE', #239, #59 ) ;
#359 = ORIENTED_EDGE ( 'NONE', *, *, #225, .T. ) ;
#360 = LINE ( 'NONE', #124, #351 ) ;
#361 = CC_DESIGN_DATE_AND_TIME_ASSIGNMENT ( #83, #205, ( #376 ) ) ;
#362 = LINE ( 'NONE', #300, #141 ) ;
#363 = CARTESIAN_POINT ( 'NONE',  ( 1.500000000000000000, 0.000000000000000000, 0.7500000000000000000 ) ) ;
#364 = APPROVAL ( #243, 'UNSPECIFIED' ) ;
#365 = DIRECTION ( 'NONE',  ( 1.000000000000000000, 0.000000000000000000, 0.000000000000000000 ) ) ;
#366 = CARTESIAN_POINT ( 'NONE',  ( 45.00000000000000000, 1.500000000000000000, 0.7500000000000000000 ) ) ;
#367 = VECTOR ( 'NONE', #215, 1000.000000000000000 ) ;
#368 = CARTESIAN_POINT ( 'NONE',  ( 43.50000000000000000, 1.500000000000000000, -0.7500000000000000000 ) ) ;
#369 = ORIENTED_EDGE ( 'NONE', *, *, #11, .F. ) ;
#370 = VECTOR ( 'NONE', #277, 1000.000000000000000 ) ;
#371 =( LENGTH_UNIT ( ) NAMED_UNIT ( * ) SI_UNIT ( .MILLI., .METRE. ) );
#372 = FACE_OUTER_BOUND ( 'NONE', #122, .T. ) ;
#373 = VERTEX_POINT ( 'NONE', #282 ) ;
#374 = ORIENTED_EDGE ( 'NONE', *, *, #46, .F. ) ;
#375 = DIRECTION ( 'NONE',  ( 0.000000000000000000, 0.000000000000000000, 1.000000000000000000 ) ) ;
#376 = PRODUCT_DEFINITION ( 'UNKNOWN', '', #265, #188 ) ;
#377 = ORIENTED_EDGE ( 'NONE', *, *, #232, .T. ) ;
ENDSEC;
END-ISO-10303-21;
